viernes, 13 de enero de 2012

Punteo para "Perfume de Carnaval"

Hola. Hoy publico mi transcripción del punteo para el tema de Peteco Carabajal "Perfume de Carnaval". No sé en qué disco está. Ni siquiera sé si lo tocan así exactamente en algún disco, pero este punteo es bonito y entra perfectamente en el tema. En la parte de abajo de esta entrada tenéis el ejemplo de cómo suena.
Pego aquí una transcripción en ASCII
Tengo también una "partitura" en formato pdf y en formato MIDI que podría enviar a quienes estuvieran interesados en ella.
Se aceptan también aportaciones de quien sea capaz de llevar al pentagrama esta birria que publico aquí

Título: Perfume de Carnaval
Autor: Peteco Carabajal



E|---------------------0---|---------------------5---|-10----10---|-8-----8---10--|
B|-------------------------|-6---------------6-------|-11---------|-10------------|
G|-----------------7-------|-----7-------7-----------|------------|---------------|
D|-------------------------|---------7---------------|------------|---------------|
A|-------------------------|-------------------------|------------|---------------|
E|-------------------------|-------------------------|------------|---------------|


E|-6-----6---8---|-5-----5---6---|-3-----3---5---|-1-----1--0-----0--|-1----0-------0---1---|
B|-8-------------|-6-------------|-5-------------|-3-----------3-----|----------3-----------|
G|---------------|---------------|---------------|-------------------|----------------------|
D|---------------|---------------|---------------|-------------------|----------------------|
A|---------------|---------------|---------------|-------------------|----------------------|
E|---------------|---------------|---------------|-------------------|----------------------|


E|-3----4----5----|--------|
B|-----------5----|--------|
G|-----------6----|--------|
D|-----------7----|--------|
A|-----------7----|--------|
E|-----------5----|--------|

Mi perfume de carnaval by cantalicio

3 comentarios:

  1. loco muy bueno..! hace bastante buscaba esta intro..! gracias por subir, estaria bueno que lo explicases en un video para principiantes, es una sijerencia..! saludos chaval http://lasmejoresptcdel2012.blogspot.com/

    ResponderEliminar
  2. Hola chango!! suena muy bien el punteo. Me podrías mandar el MIDI a gus1319@hotmail.com? Gracias

    ResponderEliminar
  3. Me mandarias el midi a baccomariano@hotmail.com?. Te lo devuelvo en partitura para cada instrumento

    ResponderEliminar